R.E.M – Losing My Religion Akorları

Akor
reklam

Gitar tab ve akor derslerimize son sürat devam ediyoruz. tüm ünlü yerli yabancıların gitar akorları ve gitar tabları ilgili kategorilerimizde mevcuttur. Ayrıca nasıl çalınır ve vdeolu gitar derslerimizle sizlere destek olmaktan gurur duyuyoruz. Konu altından yorum yapabilir sorun yaşadığınız noktalar hakkında bilgi alışverişinde bulunabilirsiniz.

 

 

 

 


R.E.M. – Losing My Religion ( Akor – Tab )


Intro:
e|------0---------------   F   e|------0---------------   Am     
B|--3--------3----------       B|--3--------3----------         
G|----------------2-----       G|----------------2-----           
D|----------------------       D|----------------------
A|----------------------       A|----------------------          x2 
E|----------------------       E|----------------------        
Verse:
G   Am              
Oh, Life is bigger
Em
It's bigger than you
Am
And you are not me
Em
The lengths that I will go to
Am
The distance in your eyes
Em                   Dm
Oh no, I've said too much
G
I set it up
Hook:
Am
That's me in the corner
Em
That's me in the spotlight
Am
Losing my religion
Em
Trying to keep up with you
Am                      
And I don't know if I can do it
Em                  Dm
Oh no I've said too much
G
I haven't said enough
Chorus: 
F
I thought that I heard you laughing
G        Am
I thought that I heard you sing
F                     G   Am
I think I thought I saw you try
Verse:
G      Am
Every whisper
Em
Of every waking hour
Am
I'm choosing my confessions
Em
Trying to keep an eye on you
Am
Like a hurt lost and blinded fool
Em                    Dm
Oh no, I've said too much
G
I set it up
Am
Consider this
Em
The hint of the century
Am
Consider this
Em
The slip that brought me
To my knees failed
Am
What if all these fantasies
Em
Come flailing around
Dm       G
Now I've said too much
Chorus: 
F
I thought that I heard you laughing
G        Am
I thought that I heard you sing
F                     G   Am
I think I thought I saw you try
Bridge:
G
e|--3------------------5-----3-------------------|   
B|--0--------3---5------------------5----3-------|
G|--0-----5--------------------------------------|
D|--0--------------------------------------------|
A|--2--------------------------------------------|
E|--3--------------------------------------------|
e|--12--12--12---10--10--10--10--10------------------------------------------|
B|---------------------------------------13--13--13---10--10--10--10--10-----|
G|---------------------------------------------------------------------------|
D|---------------------------------------------------------------------------|   
A|---------------------------------------------------------------------------|      x4
E|---------------------------------------------------------------------------|
(But that was just a dream. That was just a dream)
Hook:
Am
That's me in the corner
Em
That's me in the spotlight
Am
Losing my religion
Em
Trying to keep up with you
Am                      
And I don't know if I can do it
Em                  Dm
Oh no I've said too much
G
I haven't said enough
Chorus: 
F
I thought that I heard you laughing
G        Am
I thought that I heard you sing
F                     G   Am
I think I thought I saw you try
F               G      Am
But that was just a dream, try, cry, why, try
F                G             Am            G
That was just a dream, just a dream, just a dream, Dream
Outro: 
e|--12-12-12-12--12-12-12-12--|
B|----------------------------|
G|----------------------------|
D|----------------------------| 
A|----------------------------|     x4
E|----------------------------|
e|----12--10-------------10------------------------|
B|-------------13---10-------13---10---13----10----|
G|-------------------------------------------------|
D|-------------------------------------------------|
A|-------------------------------------------------|
E|-------------------------------------------------|

Sosyal Ağlarda Paylaş

Bir Cevap Yazın

E-posta hesabınız yayımlanmayacak. Gerekli alanlar * ile işaretlenmişlerdir