Merhaba arkadaşlar bu akor paylaşımımızda Model grubunun Değmesin Ellerimiz isimli şarkısının akorlarını paylaşıyoruz. Şarkının akorları ve çalımı Gitar Öğrencisi okuyucuları için oldukça kolaydır. Hepinizin kolaylıkla çalabileceğini düşünüyorum. Şarkının tonunu sesinize göre transpoze etmeyi unutmayın. Ve şarkıyı ilk çalarken aşağıdaki video'dan dinleyerek çalmanızı tavsiye ederim. Keyifli çalışmalar dilerim.

Model - Değmesin Ellerimiz ( Akor - Tab )

[tab] [content title="Akor"]INTRO: Gm - Dm - F - C x2

Dm           A            Dm            A
Ah ne zormuş bitsin demek hala severken seni
Gm          Dm      Em7b5          A           
Dudaklarını öpmemek bir yabancı gibi
Dm            A               Dm           A
Bilirsin ayrılık konusunda iyi değiliz ikimizde
Gm                 Dm        Em7b5            A 
Bir kıvılcım yeter her zaman koşup geri dönmemize

Ara Geçiş (4 kere)
G----3---3---0----|
D--7---7---7------|

             Gm  Bb               Dm                 
Değmesin ellerimiz buluşmasın bu gözler
            Gm  Bb            Dm  A
Yine erir gideriz unutulur yeminler
    Gm          Dm          F              C               
Biz hiç beceremedik sevmeyi de terk etmeyi de
      Gm         Dm          F            C
Aşk kokan dudakların karşısında direnmeyi de
    Gm          Dm          F               C                
Biz hiç beceremedik sevmeyi de terk etmeyi de
      Gm        Dm          F            C
Aşk dolu mısraların karşısında direnmeyi de

----Intro Çalınacak----

Dm           A    Dm          A
İşte bir kez daha durup karşında
Gm       Dm       Em7b5        A
Belki de son defa soruyorum sana

Ara Geçiş (4 kere)
G----3---3---0----|
D--7---7---7------|

             Gm  Bb               Dm  
Bitti mi hikayemiz, bu ne biçim son böyle?
                Gm  Bb        Dm   
Değmez miydi sevgimiz savaşıp direnmeye?
             Gm  Bb              Dm
Değmesin ellerimiz buluşmasın bu gözler
             Gm  Bb           Dm  A
Yine erir gideriz unutulur yeminler

    Gm          Dm          F              C                
Biz hiç beceremedik sevmeyi de terk etmeyi de
       Gm          Dm       F              C
Kendimize sahip çıkıp dünyayla yüzleşmeyi de
    Gm          Dm          F              C                
Biz hiç beceremedik sevmeyi de terk etmeyi de
         Gm        Dm          F            C
Korktuğumuz o gözlerin karşısında direnmeyi de
              Dm
Bitmesin hikayemiz…[/content] [content title="Tab"]e----------------------------------------------------------------------------
B----------------------------------------------------------------------------
G-------7-5------------------------------------------------------------------
D-5---5-----8-7-8-8/10-8\7-7-8-10----7---7--10-8-7--8p7----------5-----------
A---5----------------------------------8----------------10-5-7-8-------------
E----------------------------------------------------------------------------

e----------------------------------------------------------------------------
B----------------------------------------------------------------------------
G-------7-5-----------------------------------------------9--9-12-10h12p10-9-
D-5---5-----8-7-8-8/10-8\7-7-8-10----7---7--10-8h10p8-7----10----------------
A---5----------------------------------8-------------------------------------
E----------------------------------------------------------------------------[/content] [/tab]

Model - Değmesin Ellerimiz ( Video - Solosu Nasıl Çalınır? )

[tab] [content title="Video"][youtube src="K2Jl_t8Kbjc" /][/content] [content title="Solosu Nasıl Çalınır?"][youtube src="Up9FPCvHSf0" /][/content] [/tab]

Yorum Gönder

Sergen German ( PhoenixGRM )

{picture#https://scontent-amt2-1.xx.fbcdn.net/v/t1.0-9/14980847_1231075623615734_6151024781532805895_n.jpg?oh=8781c20ab81a4bb6fb153c66f763783d&oe=58CC82EB} Gitar Öğrencisi Sosyal Medya Sorumlusu ve Müzisyen, Vokal, Söz Yazarı. {facebook#https://www.facebook.com/PhoenixGRM} {twitter#https://twitter.com/PhoenixGRM/} {youtube#https://www.youtube.com/c/phoenixgrm} {instagram#http://www.instagram.com/sergengrm}

Gitar Öğrencisi

{picture#https://scontent-amt2-1.xx.fbcdn.net/v/t1.0-9/13925067_618148035026588_4744090707304127109_n.png?oh=2b3ffe5121e55b12a48608d8210c1aba&oe=58C674FA} Gitar dersleri, gitar ve ekipman tanıtımları, gitaristler için akor ve tab paylaşımları ve müzik dünyasından son haberler. {facebook#http://www.facebook.com/gitarogrencisi} {twitter#https://twitter.com/gitarogrencisi} {google#https://plus.google.com/+GitarÖğrencisi}
Blogger tarafından desteklenmektedir.