Mor Ve Ötesi - Gül Kendine ( Akor - Chords )


  Em F# Am Em ( for intro  )
 E -------------------------------------------------------------------
 B -------------------------------------------------------------------
 G ----16------------------11--15--14---------------------------------
 D -------17------------14------------14------------------------------
 A ----------19--14--13------------------14--15--12--10--9--7---------
 E -------------------------------------------------------------------
 
 Also for Power chords
 E ------------------------------------------------------
 B ------------------------------------------------------
 G ---------------------------------------9--------------
 D --------9--------------4------------5--7----------9---
 A --------7--------------2------------3-------------7---
 E ------------------------------------------------------


Em              F#        B7
Biter mi sandın  tüm dertlerin
      Am      C         Em
Hemen ödenmez   büyük borçlar
Em             F#      B7
Hayata tersten  baktığında
      Am       C        Em
Bitip tükenmek   çok kolay                                
Am      D      B7              Am
Aslında bütün resim güzeldir
Am     C     B7
Sadece hatırlaman gerek


Em     F#
Gül kendine 
Am                    
Bak ne kadar güzelsin
Em     F#
Gül kendine
Am           
Dünya kadar güzelsin
C       B7
Aslında dünya sensin
Em      D             C
Her şey açık, her şey kolay


Em           F#     B7
Zor zamanlar  geldiğinde
           Am   C     Em
Hep kaybedersin   gerçeği
Em            F#      B7
Sana imkansız  görünse de
           Am  C      Em
Bütün çözümler   ellerinde
Am      D     B7              Am
Aslında bütün resim güzeldir
Am     C     B7
Sadece hatırlaman gerek



Em     F#
Gül kendine 
Am                    
Bak ne kadar güzelsin
Em     F#
Gül kendine
Am           
Dünya kadar güzelsin
Em     F#
Gül kendine              
Am                  Em - F# - Am       
Bak ne kadar güzelsin

Solo - Am Bm C D - x2

With PM

Em     F#
Gül kendine x2

Em     F#
Gül kendine 
Am                    
Bak ne kadar güzelsin
Em     F#
Gül kendine
Am           
Dünya kadar güzelsin
Em     F#
Gül kendine              
Am                  Em - F# - Am       
Bak ne kadar güzelsin


Ending goes slower on every chord
Em              F#     B7
Biter mi sandın dertlerin
        Am      C       Em sutain
Yenilmesen hiç büyümezdin

Yorum Gönder

Sergen German ( PhoenixGRM )

{picture#https://scontent-amt2-1.xx.fbcdn.net/v/t1.0-9/14980847_1231075623615734_6151024781532805895_n.jpg?oh=8781c20ab81a4bb6fb153c66f763783d&oe=58CC82EB} Gitar Öğrencisi Sosyal Medya Sorumlusu ve Müzisyen, Vokal, Söz Yazarı. {facebook#https://www.facebook.com/PhoenixGRM} {twitter#https://twitter.com/PhoenixGRM/} {youtube#https://www.youtube.com/c/phoenixgrm} {instagram#http://www.instagram.com/sergengrm}

Gitar Öğrencisi

{picture#https://scontent-amt2-1.xx.fbcdn.net/v/t1.0-9/13925067_618148035026588_4744090707304127109_n.png?oh=2b3ffe5121e55b12a48608d8210c1aba&oe=58C674FA} Gitar dersleri, gitar ve ekipman tanıtımları, gitaristler için akor ve tab paylaşımları ve müzik dünyasından son haberler. {facebook#http://www.facebook.com/gitarogrencisi} {twitter#https://twitter.com/gitarogrencisi} {google#https://plus.google.com/+GitarÖğrencisi}
Blogger tarafından desteklenmektedir.