E)------------------------------------------------------------
B)------------------------------------------------------------
G)-7-7-9-5-5-5-5-0-3-3-0-2-2-2-0------------------------------
D)-0-0-0-0-0-0-0-0-0-0-0-0-0-0-0------------------------------     (x4)
A)------------------------------------------------------------
E)------------------------------------------------------------
Dm                   C     A#
Beni yak kendini yak her şeyi yak
Dm                     C   A#
Bir kıvılcım yeter ben hazırım bak
A             A#
İster öp okşa istersen öldür
G                   A
Aşk için ölmeli aşk o zaman aşk
G                   A#
Aşk için ölmeli aşk o zaman aşk 

E)----------------------------------------------------------
B)----------------------------------------------------------
G)-7-7-9-5-5-5-5-0-3-3-0-2-2-3-2-0-------0------------------
D)-0-0-0-0-0-0-0-0-0-0-0-0-0-0-0-0-3-2-3-0-2-0-3-3-3-3-3-3-3
A)---------------------------------0-0-0---0-0-0-0-0-0-0-0-0
E)----------------------------------------------------------

E)----------------------------------------------------------
B)----------------------------------------------------------
G)-7-7-9-5-5-5-5-0-3-3-0-2-2-3-2-0-------0------------------
D)-0-0-0-0-0-0-0-0-0-0-0-0-0-0-0-0-3-2-3-0-2-0-0-0-0-0-0-0-0
A)---------------------------------0-0-0-0-0-0-0-0-0-0-0-0-0
E)----------------------------------------------------------

Dm                C     A#
Seni içime çektim bir nefeste
Dm                C      A#
Yüreğim tutuklu göğsüm kafeste
A            A#
Yanacağız ikimizde ateşte
G                   A
Bir kıvılcım yeter hazırım bak
G                    A#        Dm
Aşk için ölmeli aşk o zaman aşk
Dm    C  A#   A   C     A#       G
Allah'ım Allah'ım ateşlere yürüyorum
Dm    C   A#  A  C    A#       G
Allah'ım acı ile aşk ile büyüyorum 

E)----------------------------------------------------------
B)----------------------------------------------------------
G)-7-7-9-5-5-5-5-0-3-3-0-2-2-3-2-0-------0------------------
D)-0-0-0-0-0-0-0-0-0-0-0-0-0-0-0-0-3-2-3-0-2-0-3-3-3-3-3-3-3
A)---------------------------------0-0-0---0-0-0-0-0-0-0-0-0
E)----------------------------------------------------------

E)----------------------------------------------------------
B)----------------------------------------------------------
G)-7-7-9-5-5-5-5-0-3-3-0-2-2-3-2-0-------0------------------
D)-0-0-0-0-0-0-0-0-0-0-0-0-0-0-0-0-3-2-3-0-2-0-0-0-0-0-0-0-0
A)---------------------------------0-0-0-0-0-0-0-0-0-0-0-0-0
E)----------------------------------------------------------

10                  8     6
Beni yor hasretinle sevginle yor
10                  8     6
Sevgisizlik ayrılıktan daha zor
5               6  
Dilediğin kadar acıt canımı
3                  5
Varlığında yokluğunda yetmiyor
3                  5          Dm
Varlığında yokluğunda yetmiyor
Dm C A# A C A# G
Allah'ım Allah'ım ateşlere yürüyorum
Dm C A# A C A# G
Allah'ım acı ile aşk ile büyüyorum 

A                    G     F
Beni yak kendini yak her şeyi yak
A                     G     F
Bir kıvılcım yeter ben hazırım bak
Em            F
İster öp okşa istersen öldür
Dm                  Em
Aşk için ölmeli aşk o zaman aşk
Dm                  F
Aşk için ölmeli aşk o zaman aşk
A                 G     F
Seni içime çektim bir nefeste
A                 G      F
Yüreğim tutuklu göğsüm kafeste
Em           F
Yanacağız ikimizde ateşte
Dm                 Em
Bir kıvılcım yeter hazırım bak
Dm                  F
Aşk için ölmeli aşk o zaman aşk

[alert title="Bilgi Mesajı" icon="info-circle"] Merhabalar, Çalamadığınız yerler, tavsiye ve sorularınız için lütfen iletişim bölümünden yazmayı unutmayın :) Keyifli çalışmalar. [/alert]

Yorum Gönder

Sergen German ( PhoenixGRM )

{picture#https://scontent-amt2-1.xx.fbcdn.net/v/t1.0-9/14980847_1231075623615734_6151024781532805895_n.jpg?oh=8781c20ab81a4bb6fb153c66f763783d&oe=58CC82EB} Gitar Öğrencisi Sosyal Medya Sorumlusu ve Müzisyen, Vokal, Söz Yazarı. {facebook#https://www.facebook.com/PhoenixGRM} {twitter#https://twitter.com/PhoenixGRM/} {youtube#https://www.youtube.com/c/phoenixgrm} {instagram#http://www.instagram.com/sergengrm}

Gitar Öğrencisi

{picture#https://scontent-amt2-1.xx.fbcdn.net/v/t1.0-9/13925067_618148035026588_4744090707304127109_n.png?oh=2b3ffe5121e55b12a48608d8210c1aba&oe=58C674FA} Gitar dersleri, gitar ve ekipman tanıtımları, gitaristler için akor ve tab paylaşımları ve müzik dünyasından son haberler. {facebook#http://www.facebook.com/gitarogrencisi} {twitter#https://twitter.com/gitarogrencisi} {google#https://plus.google.com/+GitarÖğrencisi}
Blogger tarafından desteklenmektedir.