Yeni bir nasıl çalınır konusuyla karşınızdayız, bu konumuzda Psy - Gangnam Style'nin nasıl çalınacağını öğreneceğiz. Şarkının çalımı oldukça basittir, ve CifraClub'ten bir video'da bulunmaktadır.. Tab'larını ben aşağıya yazdım aynı şekilde video'da da tablarını veriyor.. Video dili Türkçe değildir. Pek Türkçe'ye gerek olduğunu sanmıyorum rahatlıkla çalabilirsiniz. :) Demo Kayıtlarınızı bize göndermeyi unutmayın :)

Psy - Gangnam Style ( Tab )


E|---------------------------------------------------|
B|---------------------------------------------------|
G|---------------------------------------------------|
D|---------------------------------------------------|
A|-2-2---2---2-2-5-2-2---2-2--------------------|
E|---------------------------5-4-3------------------|

                    E5     F#5
E|-----------------------------------------|
B|-----------------------------------------|
G|-----------------------------------------|
D|-----------------------------------------|
A|-2-2---2---2-2-5--2-2-2--4-4-------|
E|------------------0-0-0--2-2-2--------|

Psy - Gangnam Style ( CifraClub )


Yorum Gönder

  1. Zor bir şarkı yardım için teşekkürler.Gitar ile daha zor :D

    YanıtlaSil

Sergen German ( PhoenixGRM )

{picture#https://scontent-amt2-1.xx.fbcdn.net/v/t1.0-9/14980847_1231075623615734_6151024781532805895_n.jpg?oh=8781c20ab81a4bb6fb153c66f763783d&oe=58CC82EB} Gitar Öğrencisi Sosyal Medya Sorumlusu ve Müzisyen, Vokal, Söz Yazarı. {facebook#https://www.facebook.com/PhoenixGRM} {twitter#https://twitter.com/PhoenixGRM/} {youtube#https://www.youtube.com/c/phoenixgrm} {instagram#http://www.instagram.com/sergengrm}

Gitar Öğrencisi

{picture#https://scontent-amt2-1.xx.fbcdn.net/v/t1.0-9/13925067_618148035026588_4744090707304127109_n.png?oh=2b3ffe5121e55b12a48608d8210c1aba&oe=58C674FA} Gitar dersleri, gitar ve ekipman tanıtımları, gitaristler için akor ve tab paylaşımları ve müzik dünyasından son haberler. {facebook#http://www.facebook.com/gitarogrencisi} {twitter#https://twitter.com/gitarogrencisi} {google#https://plus.google.com/+GitarÖğrencisi}
Blogger tarafından desteklenmektedir.