Aydilge - Kiraz Mevsimi (Tab)

Dizi severlerin son dönemlerde gözde dizisi Kiraz Mevsimi, dizi müzikleri ile gündemden düşmüyor. Dizi'nin müziklerinin neşeli şarkıları ile bilinen Aydilge yapmakta. Aydilge neşeli aşk şarkıları ile bilenen harika bir sanatçımız. Kiraz Mevsimi için yaptığı bu şarkıda enfes gözüküyor.

Aydilge'nin Kiraz Mevsimi için hazırladığı özel şarkının tabları sizler için basite entegre edilmiş şekilde sayfamızda. İşte Aydilge - Kiraz Mevsimi tab;

Aydilge - Kiraz Mevsimi (Tab)


---2---222-23-25--555-73----------------------------
--0----------------------3-5-7-5-3-2----------------
----------------------------------------------------
----------------------------------------------------
----------------------------------------------------
----------------------------------------------------


---2--222-23-25--555-73-----------------------------
--0---------------------3-5-7--3532--023-2023-------
----------------------------------------------------
----------------------------------------------------
----------------------------------------------------
----------------------------------------------------


----------------------------------------------------
--23--532-232--02---235-----------------------------
-----------------3----------------------------------
----------------------------------------------------
----------------------------------------------------
----------------------------------------------------


-222-32----232----------------------------------------2------
-------3-------3--3537--78--7757-777873--3537-353-35-3--323--
-------------------------------------------------------------
-------------------------------------------------------------
-------------------------------------------------------------
-------------------------------------------------------------

Yorum Gönder

Sergen German ( PhoenixGRM )

{picture#https://scontent-amt2-1.xx.fbcdn.net/v/t1.0-9/14980847_1231075623615734_6151024781532805895_n.jpg?oh=8781c20ab81a4bb6fb153c66f763783d&oe=58CC82EB} Gitar Öğrencisi Sosyal Medya Sorumlusu ve Müzisyen, Vokal, Söz Yazarı. {facebook#https://www.facebook.com/PhoenixGRM} {twitter#https://twitter.com/PhoenixGRM/} {youtube#https://www.youtube.com/c/phoenixgrm} {instagram#http://www.instagram.com/sergengrm}

Gitar Öğrencisi

{picture#https://scontent-amt2-1.xx.fbcdn.net/v/t1.0-9/13925067_618148035026588_4744090707304127109_n.png?oh=2b3ffe5121e55b12a48608d8210c1aba&oe=58C674FA} Gitar dersleri, gitar ve ekipman tanıtımları, gitaristler için akor ve tab paylaşımları ve müzik dünyasından son haberler. {facebook#http://www.facebook.com/gitarogrencisi} {twitter#https://twitter.com/gitarogrencisi} {google#https://plus.google.com/+GitarÖğrencisi}
Blogger tarafından desteklenmektedir.